  0
SECTION
  2
HEADER
  9
$ACADVER
  1
AC1009
  9
$INSBASE
 10
0.0
 20
0.0
 30
0.0
  9
$EXTMIN
 10
-15.808794
 20
-22.780318
 30
0.0
  9
$EXTMAX
 10
15.778542
 20
0.001
 30
0.0
  9
$LIMMIN
 10
0.0
 20
0.0
  9
$LIMMAX
 10
12.0
 20
9.0
  9
$ORTHOMODE
 70
     0
  9
$REGENMODE
 70
     1
  9
$FILLMODE
 70
     1
  9
$QTEXTMODE
 70
     0
  9
$MIRRTEXT
 70
     1
  9
$DRAGMODE
 70
     2
  9
$LTSCALE
 40
1.0
  9
$OSMODE
 70
     0
  9
$ATTMODE
 70
     1
  9
$TEXTSIZE
 40
0.001
  9
$TRACEWID
 40
0.05
  9
$TEXTSTYLE
  7
STANDARD
  9
$CLAYER
  8
0
  9
$CELTYPE
  6
BYLAYER
  9
$CECOLOR
 62
   256
  9
$DIMSCALE
 40
1.0
  9
$DIMASZ
 40
0.18
  9
$DIMEXO
 40
0.0625
  9
$DIMDLI
 40
0.38
  9
$DIMRND
 40
0.0
  9
$DIMDLE
 40
0.0
  9
$DIMEXE
 40
0.18
  9
$DIMTP
 40
0.0
  9
$DIMTM
 40
0.0
  9
$DIMTXT
 40
0.18
  9
$DIMCEN
 40
0.09
  9
$DIMTSZ
 40
0.0
  9
$DIMTOL
 70
     0
  9
$DIMLIM
 70
     0
  9
$DIMTIH
 70
     1
  9
$DIMTOH
 70
     1
  9
$DIMSE1
 70
     0
  9
$DIMSE2
 70
     0
  9
$DIMTAD
 70
     0
  9
$DIMZIN
 70
     0
  9
$DIMBLK
  1

  9
$DIMASO
 70
     1
  9
$DIMSHO
 70
     1
  9
$DIMPOST
  1

  9
$DIMAPOST
  1

  9
$DIMALT
 70
     0
  9
$DIMALTD
 70
     2
  9
$DIMALTF
 40
25.4
  9
$DIMLFAC
 40
1.0
  9
$DIMTOFL
 70
     0
  9
$DIMTVP
 40
0.0
  9
$DIMTIX
 70
     0
  9
$DIMSOXD
 70
     0
  9
$DIMSAH
 70
     0
  9
$DIMBLK1
  1

  9
$DIMBLK2
  1

  9
$DIMSTYLE
  2
*UNNAMED
  9
$DIMCLRD
 70
     0
  9
$DIMCLRE
 70
     0
  9
$DIMCLRT
 70
     0
  9
$DIMTFAC
 40
1.0
  9
$DIMGAP
 40
0.09
  9
$LUNITS
 70
     2
  9
$LUPREC
 70
     4
  9
$SKETCHINC
 40
0.1
  9
$FILLETRAD
 40
0.5
  9
$AUNITS
 70
     0
  9
$AUPREC
 70
     0
  9
$MENU
  1
acad
  9
$ELEVATION
 40
0.0
  9
$PELEVATION
 40
0.0
  9
$THICKNESS
 40
0.0
  9
$LIMCHECK
 70
     0
  9
$BLIPMODE
 70
     0
  9
$CHAMFERA
 40
0.5
  9
$CHAMFERB
 40
0.5
  9
$SKPOLY
 70
     0
  9
$TDCREATE
 40
2451102.672850578
  9
$TDUPDATE
 40
2451103.439451620
  9
$TDINDWG
 40
0.0007685185
  9
$TDUSRTIMER
 40
0.0007685185
  9
$USRTIMER
 70
     1
  9
$ANGBASE
 50
0.0
  9
$ANGDIR
 70
     0
  9
$PDMODE
 70
     0
  9
$PDSIZE
 40
0.0
  9
$PLINEWID
 40
0.0
  9
$COORDS
 70
     1
  9
$SPLFRAME
 70
     0
  9
$SPLINETYPE
 70
     6
  9
$SPLINESEGS
 70
     8
  9
$ATTDIA
 70
     0
  9
$ATTREQ
 70
     1
  9
$HANDLING
 70
     1
  9
$HANDSEED
  5
251C3
  9
$SURFTAB1
 70
     6
  9
$SURFTAB2
 70
     6
  9
$SURFTYPE
 70
     6
  9
$SURFU
 70
     6
  9
$SURFV
 70
     6
  9
$UCSNAME
  2

  9
$UCSORG
 10
0.0
 20
0.0
 30
0.0
  9
$UCSXDIR
 10
1.0
 20
0.0
 30
0.0
  9
$UCSYDIR
 10
0.0
 20
1.0
 30
0.0
  9
$PUCSNAME
  2

  9
$PUCSORG
 10
0.0
 20
0.0
 30
0.0
  9
$PUCSXDIR
 10
1.0
 20
0.0
 30
0.0
  9
$PUCSYDIR
 10
0.0
 20
1.0
 30
0.0
  9
$USERI1
 70
     0
  9
$USERI2
 70
     0
  9
$USERI3
 70
     0
  9
$USERI4
 70
     0
  9
$USERI5
 70
     0
  9
$USERR1
 40
0.0
  9
$USERR2
 40
0.0
  9
$USERR3
 40
0.0
  9
$USERR4
 40
0.0
  9
$USERR5
 40
0.0
  9
$WORLDVIEW
 70
     1
  9
$SHADEDGE
 70
     3
  9
$SHADEDIF
 70
    70
  9
$TILEMODE
 70
     1
  9
$MAXACTVP
 70
    16
  9
$PINSBASE
 10
0.0
 20
0.0
 30
0.0
  9
$PLIMCHECK
 70
     0
  9
$PEXTMIN
 10
1.000000E+20
 20
1.000000E+20
 30
1.000000E+20
  9
$PEXTMAX
 10
-1.000000E+20
 20
-1.000000E+20
 30
-1.000000E+20
  9
$PLIMMIN
 10
0.0
 20
0.0
  9
$PLIMMAX
 10
12.0
 20
9.0
  9
$UNITMODE
 70
     0
  9
$VISRETAIN
 70
     1
  9
$PLINEGEN
 70
     0
  9
$PSLTSCALE
 70
     1
  9
$TREEDEPTH
 70
  3020
  9
$DWGCODEPAGE
  3
dummy
  0
ENDSEC
  0
SECTION
  2
TABLES
  0
TABLE
  2
VPORT
 70
     2
  0
VPORT
  2
*ACTIVE
 70
     0
 10
0.0
 20
0.0
 11
1.0
 21
1.0
 12
2.419163
 22
-10.999949
 13
0.0
 23
0.0
 14
0.5
 24
0.5
 15
0.5
 25
0.5
 16
0.0
 26
0.0
 36
1.0
 17
0.0
 27
0.0
 37
0.0
 40
24.444331
 41
1.573846
 42
50.0
 43
0.0
 44
0.0
 50
0.0
 51
0.0
 71
     0
 72
   100
 73
     1
 74
     1
 75
     0
 76
     0
 77
     0
 78
     0
  0
ENDTAB
  0
TABLE
  2
LTYPE
 70
     1
  0
LTYPE
  2
CONTINUOUS
 70
    64
  3
Solid line
 72
    65
 73
     0
 40
0.0
  0
ENDTAB
  0
TABLE
  2
LAYER
 70
     1
  0
LAYER
  2
0
 70
    64
 62
     7
  6
CONTINUOUS
  0
ENDTAB
  0
TABLE
  2
STYLE
 70
     1
  0
STYLE
  2
STANDARD
 70
    64
 40
0.0
 41
1.0
 50
0.0
 71
     0
 42
0.001
  3
txt
  4

  0
ENDTAB
  0
TABLE
  2
VIEW
 70
     0
  0
ENDTAB
  0
TABLE
  2
UCS
 70
     0
  0
ENDTAB
  0
TABLE
  2
APPID
 70
     1
  0
APPID
  2
ACAD
 70
    64
  0
ENDTAB
  0
TABLE
  2
DIMSTYLE
 70
     0
  0
ENDTAB
  0
ENDSEC
  0
SECTION
  2
BLOCKS
  0
ENDSEC
  0
SECTION
  2
ENTITIES
  0
LINE
  8
0
  5
10838
 10
-13.632883
 20
-4.112443
 30
0.0
 11
13.666329
 21
-4.112443
 31
0.0
  0
LINE
  8
0
  5
1083A
 10
-15.004188
 20
0.0
 30
0.0
 11
15.004188
 21
0.0
 31
0.0
  0
LINE
  8
0
  5
1083D
 10
11.358523
 20
-21.999898
 30
0.0
 11
-11.492309
 21
-21.999898
 31
0.0
  0
LINE
  8
0
  5
2518C
 10
-11.331205
 20
-20.349881
 30
0.0
 11
11.379319
 21
-20.349881
 31
0.0
  0
CIRCLE
  8
0
  5
10889
 10
-0.00478
 20
-7.507024
 30
0.0
 40
1.125
  0
LINE
  8
0
  5
1083F
 10
-15.004188
 20
-18.355538
 30
0.0
 11
-15.004188
 21
0.0
 31
0.0
  0
LINE
  8
0
  5
2518A
 10
-13.376994
 20
-6.101171
 30
0.0
 11
-13.376994
 21
-18.060309
 31
0.0
  0
ARC
  8
0
  5
2518B
 10
-11.38006
 20
-18.334766
 30
0.0
 40
2.015707
 50
172.174329
 51
271.388823
  0
ARC
  8
0
  5
1083E
 10
-11.492309
 20
-18.485611
 30
0.0
 40
3.514287
 50
177.878852
 51
270.0
  0
ARC
  8
0
  5
25189
 10
-11.240129
 20
-6.251334
 30
0.0
 40
2.142135
 50
93.153592
 51
175.980295
  0
ARC
  8
0
  5
10837
 10
-13.59789
 20
-2.706567
 30
0.0
 40
1.406311
 50
179.744977
 51
268.574201
  0
LINE
  8
0
  5
1083B
 10
15.004188
 20
0.0
 30
0.0
 11
15.004188
 21
-18.522711
 31
0.0
  0
LINE
  8
0
  5
2518E
 10
13.358395
 20
-18.282596
 30
0.0
 11
13.358395
 21
-6.123399
 31
0.0
  0
ARC
  8
0
  5
2518D
 10
11.379319
 20
-18.368923
 30
0.0
 40
1.980958
 50
270.0
 51
2.497632
  0
ARC
  8
0
  5
1083C
 10
11.523108
 20
-18.522711
 30
0.0
 40
3.48108
 50
267.290055
 51
0.0
  0
ARC
  8
0
  5
2518F
 10
11.247026
 20
-6.225106
 30
0.0
 40
2.113817
 50
2.757876
 51
88.106667
  0
ARC
  8
0
  5
10839
 10
13.562513
 20
-2.674484
 30
0.0
 40
1.441702
 50
274.129405
 51
359.64852
  0
ATTDEF
  8
0
  5
251BF
 10
0.0
 20
0.0
 30
0.0
 40
0.001
  1
K-12787
  3

  2
MODELNUMBER
 70
     8
  0
ATTDEF
  8
0
  5
251C0
 10
0.0
 20
-0.0017
 30
0.0
 40
0.001
  1
GILFORD
  3

  2
TRADENAME
 70
     8
  0
ATTDEF
  8
0
  5
251C1
 10
0.0
 20
-0.0034
 30
0.0
 40
0.001
  1
C_SINKS
  3

  2
PRODUCT
 70
     8
  0
ATTDEF
  8
0
  5
251C2
 10
0.0
 20
-0.0051
 30
0.0
 40
0.001
  1
VITREOUS CHINA
  3

  2
MATERIAL
 70
     8
  0
ENDSEC
  0
EOF
