  0
SECTION
  2
HEADER
  9
$ACADVER
  1
AC1009
  9
$INSBASE
 10
4.2674623446029756
 20
28.351550054694439
 30
0.0
  9
$EXTMIN
 10
-13.58726291544917
 20
17.55920075416708
 30
-0.0000000000112498
  9
$EXTMAX
 10
22.12226786972116
 20
39.142359969720452
 30
0.0000000000002956
  9
$LIMMIN
 10
0.0
 20
0.0
  9
$LIMMAX
 10
11.692913385800001
 20
8.2677165353999982
  9
$ORTHOMODE
 70
     0
  9
$REGENMODE
 70
     1
  9
$FILLMODE
 70
     1
  9
$QTEXTMODE
 70
     0
  9
$MIRRTEXT
 70
     0
  9
$DRAGMODE
 70
     2
  9
$LTSCALE
 40
0.6431102362
  9
$OSMODE
 70
   231
  9
$ATTMODE
 70
     1
  9
$TEXTSIZE
 40
0.2
  9
$TRACEWID
 40
0.05
  9
$TEXTSTYLE
  7
STANDARD
  9
$CLAYER
  8
0
  9
$CELTYPE
  6
BYLAYER
  9
$CECOLOR
 62
   256
  9
$DIMSCALE
 40
1.0
  9
$DIMASZ
 40
0.1875
  9
$DIMEXO
 40
0.0625
  9
$DIMDLI
 40
0.4443307087
  9
$DIMRND
 40
0.0
  9
$DIMDLE
 40
0.0
  9
$DIMEXE
 40
0.125
  9
$DIMTP
 40
0.0
  9
$DIMTM
 40
0.0
  9
$DIMTXT
 40
1.0
  9
$DIMCEN
 40
0.1052362205
  9
$DIMTSZ
 40
0.0
  9
$DIMTOL
 70
     0
  9
$DIMLIM
 70
     0
  9
$DIMTIH
 70
     1
  9
$DIMTOH
 70
     1
  9
$DIMSE1
 70
     0
  9
$DIMSE2
 70
     0
  9
$DIMTAD
 70
     0
  9
$DIMZIN
 70
     0
  9
$DIMBLK
  1

  9
$DIMASO
 70
     1
  9
$DIMSHO
 70
     1
  9
$DIMPOST
  1
\X
  9
$DIMAPOST
  1

  9
$DIMALT
 70
     1
  9
$DIMALTD
 70
     2
  9
$DIMALTF
 40
25.399999999999999
  9
$DIMLFAC
 40
1.0
  9
$DIMTOFL
 70
     0
  9
$DIMTVP
 40
0.0
  9
$DIMTIX
 70
     0
  9
$DIMSOXD
 70
     0
  9
$DIMSAH
 70
     0
  9
$DIMBLK1
  1

  9
$DIMBLK2
  1

  9
$DIMSTYLE
  2
STANDARD
  9
$DIMCLRD
 70
     0
  9
$DIMCLRE
 70
     0
  9
$DIMCLRT
 70
     0
  9
$DIMTFAC
 40
1.0
  9
$DIMGAP
 40
0.09
  9
$LUNITS
 70
     2
  9
$LUPREC
 70
     4
  9
$SKETCHINC
 40
0.1
  9
$FILLETRAD
 40
0.0
  9
$AUNITS
 70
     0
  9
$AUPREC
 70
     0
  9
$MENU
  1
.
  9
$ELEVATION
 40
0.0
  9
$PELEVATION
 40
0.0
  9
$THICKNESS
 40
0.0
  9
$LIMCHECK
 70
     0
  9
$BLIPMODE
 70
     0
  9
$CHAMFERA
 40
0.0
  9
$CHAMFERB
 40
0.0
  9
$SKPOLY
 70
     0
  9
$TDCREATE
 40
2457954.5898997448
  9
$TDUPDATE
 40
2457954.6253880672
  9
$TDINDWG
 40
0.027681412
  9
$TDUSRTIMER
 40
0.027681412
  9
$USRTIMER
 70
     1
  9
$ANGBASE
 50
0.0
  9
$ANGDIR
 70
     0
  9
$PDMODE
 70
     0
  9
$PDSIZE
 40
0.3125
  9
$PLINEWID
 40
0.0
  9
$COORDS
 70
     1
  9
$SPLFRAME
 70
     0
  9
$SPLINETYPE
 70
     6
  9
$SPLINESEGS
 70
     8
  9
$ATTDIA
 70
     1
  9
$ATTREQ
 70
     1
  9
$HANDLING
 70
     1
  9
$HANDSEED
  5
DD7
  9
$SURFTAB1
 70
     6
  9
$SURFTAB2
 70
     6
  9
$SURFTYPE
 70
     6
  9
$SURFU
 70
     6
  9
$SURFV
 70
     6
  9
$UCSNAME
  2

  9
$UCSORG
 10
0.0
 20
0.0
 30
0.0
  9
$UCSXDIR
 10
1.0
 20
0.0
 30
0.0
  9
$UCSYDIR
 10
0.0
 20
1.0
 30
0.0
  9
$PUCSNAME
  2

  9
$PUCSORG
 10
0.0
 20
0.0
 30
0.0
  9
$PUCSXDIR
 10
1.0
 20
0.0
 30
0.0
  9
$PUCSYDIR
 10
0.0
 20
1.0
 30
0.0
  9
$USERI1
 70
     0
  9
$USERI2
 70
     0
  9
$USERI3
 70
     0
  9
$USERI4
 70
     0
  9
$USERI5
 70
     0
  9
$USERR1
 40
0.0
  9
$USERR2
 40
0.0
  9
$USERR3
 40
0.0
  9
$USERR4
 40
0.0
  9
$USERR5
 40
0.0
  9
$WORLDVIEW
 70
     1
  9
$SHADEDGE
 70
     3
  9
$SHADEDIF
 70
    70
  9
$TILEMODE
 70
     1
  9
$MAXACTVP
 70
    48
  9
$PLIMCHECK
 70
     0
  9
$PEXTMIN
 10
1.0000000000000000E+020
 20
1.0000000000000000E+020
 30
1.0000000000000000E+020
  9
$PEXTMAX
 10
-1.0000000000000000E+020
 20
-1.0000000000000000E+020
 30
-1.0000000000000000E+020
  9
$PLIMMIN
 10
0.0
 20
0.0
  9
$PLIMMAX
 10
12.0
 20
9.0
  9
$UNITMODE
 70
     0
  9
$VISRETAIN
 70
     1
  9
$PLINEGEN
 70
     0
  9
$PSLTSCALE
 70
     1
  0
ENDSEC
  0
SECTION
  2
TABLES
  0
TABLE
  2
VPORT
 70
     1
  0
VPORT
  2
*ACTIVE
 70
     0
 10
0.0
 20
0.0
 11
1.0
 21
1.0
 12
4.2675024771359897
 22
28.350780361943759
 13
0.0
 23
0.0
 14
1.0
 24
1.0
 15
0.0
 25
0.0
 16
0.0
 26
0.0
 36
1.0
 17
0.0
 27
0.0
 37
0.0
 40
21.778084814593601
 41
1.786624203821656
 42
50.0
 43
0.0
 44
0.0
 50
0.0
 51
0.0
 71
     0
 72
   100
 73
     1
 74
     1
 75
     0
 76
     0
 77
     0
 78
     0
  0
ENDTAB
  0
TABLE
  2
LTYPE
 70
     2
  0
LTYPE
  2
CONTINUOUS
 70
     0
  3
Solid line
 72
    65
 73
     0
 40
0.0
  0
LTYPE
  2
PHANTOM2
 70
     0
  3
___ _ _ ___ _ _ ___ _ _ ___ _ _
 72
    65
 73
     6
 40
1.25
 49
0.625
 49
-0.125
 49
0.125
 49
-0.125
 49
0.125
 49
-0.125
  0
ENDTAB
  0
TABLE
  2
LAYER
 70
     2
  0
LAYER
  2
0
 70
     0
 62
     7
  6
CONTINUOUS
  0
LAYER
  2
DEFPOINTS
 70
     0
 62
     7
  6
CONTINUOUS
  0
ENDTAB
  0
TABLE
  2
STYLE
 70
     1
  0
STYLE
  2
STANDARD
 70
     0
 40
0.0
 41
0.8
 50
0.0
 71
     0
 42
0.2
  3
txt
  4

  0
ENDTAB
  0
TABLE
  2
VIEW
 70
     0
  0
ENDTAB
  0
TABLE
  2
UCS
 70
     0
  0
ENDTAB
  0
TABLE
  2
APPID
 70
     7
  0
APPID
  2
ACAD
 70
     0
  0
APPID
  2
ACAD_MLEADERVER
 70
     0
  0
APPID
  2
ACAD_NAV_VCDISPLAY
 70
     0
  0
APPID
  2
ACAD_EXEMPT_FROM_CAD_STANDARDS
 70
     0
  0
APPID
  2
ACAD_DSTYLE_DIMJAG
 70
     0
  0
APPID
  2
ACAD_DSTYLE_DIMTALN
 70
     0
  0
APPID
  2
ACDBATTR
 70
     0
  0
ENDTAB
  0
TABLE
  2
DIMSTYLE
 70
     1
  0
DIMSTYLE
  2
STANDARD
 70
     0
  3

  4

  5

  6

  7

 40
1.0
 41
0.1875
 42
0.0625
 43
0.38
 44
0.125
 45
0.0
 46
0.0
 47
1.5
 48
1.5
140
0.15625
141
0.09
142
0.0
143
25.399999999999999
144
1.0
145
0.0
146
1.0
147
0.09
 71
     0
 72
     0
 73
     1
 74
     1
 75
     0
 76
     0
 77
     0
 78
     4
170
     0
171
     2
172
     0
173
     0
174
     0
175
     0
176
     0
177
     0
178
     0
  0
ENDTAB
  0
ENDSEC
  0
SECTION
  2
BLOCKS
  0
BLOCK
  8
0
  2
$MODEL_SPACE
 70
     0
 10
0.0
 20
0.0
 30
0.0
  3
$MODEL_SPACE
  1

  0
ENDBLK
  5
21
  8
0
  0
BLOCK
 67
     1
  8
0
  2
$PAPER_SPACE
 70
     0
 10
0.0
 20
0.0
 30
0.0
  3
$PAPER_SPACE
  1

  0
ENDBLK
  5
1D
 67
     1
  8
0
  0
ENDSEC
  0
SECTION
  2
ENTITIES
  0
LINE
  5
2E5
  8
0
 10
-13.550077400199999
 20
19.0967658056
 30
0.0
 11
-13.584228619999999
 21
19.748409897999998
 31
0.0
  0
LINE
  5
2EB
  8
0
 10
-12.7325376554
 20
19.8715499646
 30
0.0
 11
-12.7325376554
 21
39.081778372800002
 31
0.0
  0
LINE
  5
2F4
  8
0
 10
-11.1278820528
 20
36.324426579200001
 30
0.0
 11
-11.1278820528
 21
21.243465209499998
 31
0.0
  0
LINE
  5
30B
  8
0
 10
-11.9322975539
 20
17.5615500547
 30
0.0
 11
20.467222243199998
 21
17.5615500547
 31
0.0
  0
LINE
  5
319
  8
0
 10
-12.7595209652
 20
19.8115500547
 30
0.0
 11
-13.524310847800001
 21
19.8115500547
 31
0.0
  0
LINE
  5
31A
  8
0
 10
21.294445654499999
 20
19.8115500547
 30
0.0
 11
22.059235537100001
 21
19.8115500547
 31
0.0
  0
LINE
  5
31D
  8
0
 10
-9.7147075750000003
 20
19.708522792499998
 30
0.0
 11
18.249632264300001
 21
19.708522792499998
 31
0.0
  0
LINE
  5
346
  8
0
 10
18.216338869200001
 20
37.770894452100009
 30
0.0
 11
-9.6814141799000009
 21
37.770894452100009
 31
0.0
  0
LINE
  5
34E
  8
0
 10
-12.672765974000001
 20
39.1415500552
 30
0.0
 11
21.207690663400001
 21
39.141550055300002
 31
0.0
  0
LINE
  5
362
  8
0
 10
19.662806742099999
 20
21.243465209499998
 30
0.0
 11
19.662806742099999
 21
36.324426579200001
 31
0.0
  0
LINE
  5
36E
  8
0
 10
21.267462344599998
 20
39.081778372800002
 30
0.0
 11
21.267462344599998
 21
19.8715499646
 31
0.0
  0
LINE
  5
373
  8
0
 10
22.119153309200001
 20
19.7484098979
 30
0.0
 11
22.085002089500001
 21
19.0967658056
 31
0.0
  0
ARC
  5
47C
  8
0
 10
-11.9322975539
 20
19.181550054700001
 30
0.0
 40
1.6200000000000001
 50
183.0
 51
270.0
  0
ARC
  5
47E
  8
0
 10
-13.524310847800001
 20
19.751550054700001
 30
0.0
 40
0.06
 50
90.0
 51
182.9999993328
  0
ARC
  5
47F
  8
0
 10
20.467222243199998
 20
19.181550054700001
 30
0.0
 40
1.6200000000000001
 50
270.0
 51
357.0
  0
ARC
  5
481
  8
0
 10
22.059235537100001
 20
19.751550054700001
 30
0.0
 40
0.06
 50
357.00000060830001
 51
90.0
  0
CIRCLE
  5
4AF
  8
0
 10
14.5074623446
 20
32.3815500547
 30
0.0
 40
1.7515000000000001
  0
CIRCLE
  5
4B1
  8
0
 10
14.5074623446
 20
32.3815500547
 30
0.0
 40
1.523301930099999
  0
CIRCLE
  5
4DC
  8
0
 10
14.5074623446
 20
32.3815500547
 30
0.0
 40
0.31
  0
CIRCLE
  5
4DD
  8
0
 10
14.5074623446
 20
32.3815500547
 30
0.0
 40
0.2760938555
  0
ARC
  5
6C6
  8
0
 10
-12.6728595048104
 20
39.08187190411072
 30
0.0
 40
0.0596782238725345
 50
89.910202332099445
 51
180.08979747161069
  0
ARC
  5
6C7
  8
0
 10
21.207784307619459
 20
39.081872018317419
 30
0.0
 40
0.0596781104537861
 50
359.91009274456849
 51
90.089906009284974
  0
ARC
  5
6C8
  8
0
 10
21.373916170853111
 20
19.883357190384469
 30
0.0
 40
0.1071066183979257
 50
186.32903884014561
 51
222.1000055109707
  0
ARC
  5
6C9
  8
0
 10
-12.798283255636219
 20
19.865038367178549
 30
0.0
 40
0.0660569052534669
 50
305.9303592416386
 51
5.5655340616215732
  0
ARC
  5
6CA
  8
0
 10
-9.8287432398567276
 20
36.461593660984228
 30
0.0
 40
1.3175638176286211
 50
83.579799281072283
 51
145.03727972718241
  0
ARC
  5
6CB
  8
0
 10
-9.5587031329252188
 20
36.411674121926652
 30
0.0
 40
1.5716025630836949
 50
149.19096690733269
 51
183.1824122482619
  0
ARC
  5
6CC
  8
0
 10
18.367339204805191
 20
36.441004225288118
 30
0.0
 40
1.338435324071598
 50
37.29064894111989
 51
96.477818420302313
  0
ARC
  5
6CD
  8
0
 10
17.87881880807657
 20
36.373203686228571
 30
0.0
 40
1.784654631829715
 50
358.43383118381308
 51
29.49620283505358
  0
ARC
  5
6CE
  8
0
 10
18.009560980564839
 20
21.102080178501271
 30
0.0
 40
1.6592803485474179
 50
320.30634590374501
 51
4.8880229077830784
  0
ARC
  5
6CF
  8
0
 10
18.381335959051071
 20
21.076226453744759
 30
0.0
 40
1.3740302646570079
 50
264.49963428127779
 51
311.19627091994579
  0
ARC
  5
711
  8
0
 10
20.223510394004201
 20
9234.9025237479036
 30
0.0
 40
9197.6343078111931
 50
269.8165475253536
 51
269.98436726268432
  0
ARC
  5
712
  8
0
 10
17.895256370848099
 20
36.007529873320152
 30
0.0
 40
1.273988109966872
 50
37.57898737417824
 51
98.179395247459823
  0
ARC
  5
713
  8
0
 10
17.548028706239641
 20
35.909069896914779
 30
0.0
 40
1.6147638220640561
 50
356.91142152571041
 51
32.828566154934173
  0
ARC
  5
714
  8
0
 10
3499.5886588073099
 20
32.903930402602683
 30
0.0
 40
3480.4294351790718
 50
179.95196083620559
 51
180.1521309412104
  0
ARC
  5
715
  8
0
 10
17.886782295738701
 20
23.51712762559805
 30
0.0
 40
1.292937189257136
 50
307.75597163215463
 51
6.467090431982462
  0
ARC
  5
716
  8
0
 10
17.83376641945053
 20
23.963970793680279
 30
0.0
 40
1.6945973557208771
 50
266.4524381441891
 51
299.89785122622811
  0
ARC
  5
717
  8
0
 10
19.298858641509561
 20
-2094.92637409381
 30
0.0
 40
2117.1995768329271
 50
90.042486055016809
 51
90.772151802397332
  0
ARC
  5
718
  8
0
 10
-9.4417342184810185
 20
23.30800026483556
 30
0.0
 40
1.2446980036491451
 50
172.6063722219838
 51
279.65820085491248
  0
ARC
  5
719
  8
0
 10
-10011.85735604097
 20
32.33641073988656
 30
0.0
 40
10001.185219525039
 50
359.94919477027088
 51
0.020239594845697
  0
ARC
  5
71A
  8
0
 10
-9.4058855654385241
 20
36.048589588029103
 30
0.0
 40
1.279497653019569
 50
81.912628189508027
 51
188.0548636654201
  0
ARC
  5
71C
  8
0
 10
-9.1547033075431479
 20
21.165273045626471
 30
0.0
 40
1.974727417955358
 50
177.7306981864688
 51
202.95463972243189
  0
ATTDEF
  5
95E
  8
DEFPOINTS
 10
4.2640405908173298
 20
28.354155273080991
 30
0.0
 40
0.001
  1
CAST IRON
  3

  2
MATERIAL
 70
     0
1001
ACDBATTR
1070
     0
1070
     1
  0
ATTDEF
  5
95F
  8
DEFPOINTS
 10
4.2640405908173298
 20
28.355821939747649
 30
0.0
 40
0.001
  1
KITCHEN SINK
  3

  2
PRODUCT
 70
     0
1001
ACDBATTR
1070
     0
1070
     1
  0
ATTDEF
  5
960
  8
DEFPOINTS
 10
4.2640405908173298
 20
28.357488606414321
 30
0.0
 40
0.001
  1
WHITEHAVEN
  3

  2
TRADENAME
 70
     0
1001
ACDBATTR
1070
     0
1070
     1
  0
ATTDEF
  5
961
  8
DEFPOINTS
 10
4.2640405908173298
 20
28.35915527308099
 30
0.0
 40
0.001
  1
K-6489
  3

  2
MODELNUMBER
 70
     0
1001
ACDBATTR
1070
     0
1070
     1
  0
ARC
  5
B00
  8
0
 10
-9.983556328061562
 20
20.800150114123401
 30
0.0
 40
1.0691877651777391
 50
202.26034963695571
 51
253.2788387790558
  0
ARC
  5
B01
  8
0
 10
-9.7325936382773897
 20
22.04528010480767
 30
0.0
 40
2.3368501907770849
 50
256.17055256607131
 51
270.43841976827889
  0
ENDSEC
  0
EOF
